Музыка из к/ф "Крестный отец" - Из Кинофильма - Исполнители - ПЕСНИ ПОД ГИТАРУ
Пятница, 09.Декабрь.16, 02:54
Приветствую Вас Гость | RSS
Главная | Исполнители | Регистрация | Вход
Меню сайта
Форма входа
Категории раздела
Голубые Береты [3]
Петлюра Виктор [5]
Любэ [6]
Разные под гитару [4]
Сектор Газа [3]
ДДТ [1]
Aрмейские [6]
Адреналин [1]
Юрий Шатунов [2]
Из Кинофильма [9]
Мальчишник [1]
Milow - Ayo [1]
Город 312 [1]
Сергей Трофимов [1]
Руки В верх [0]
Поиск
Друзья сайта
.
Статистика

Онлайн всего: 1
Гостей: 1
Пользователей: 0
песни под гитару
Главная » Файлы » Из Кинофильма

Музыка из к/ф "Крестный отец"
09.Ноябрь.09, 16:33
Крёстный Отец
1|-------------------------------------------------------
2|------3-2-0-3-0-2-0---------------3-2-0-3-0-2-0--------
3|----4----------------0-2--------4----------------------
4|--4----------------------4----4------------------4-3-2-
5|-------------------------------------------------------
6|-------------------------------------------------------

1|---------------------------------------------
2|-------2--------0----------------------------
3|---0-3------0-3---------2-0---2-0-0----------
4|-2--------2-----------0-----4-------4-4------
5|--------------------2--------------------1-2-
6|---------------------------------------------

1|---------------------------------------
2|-0-0--------2-0------------------------
3|-----3-2--------0-------2--------0-----
4|------------------4---4---4-2--2---3-4-
5|---------------------------------------
6|---------------------------------------

1|-------------------------------------------------------
2|------3-2-0-3-0-2-0---------------3-2-0-3-0-2-0--------
3|----4----------------0-2--------4----------------------
4|--4----------------------4----4------------------4-3-2-
5|-------------------------------------------------------
6|-------------------------------------------------------

1|---------------------------------------------
2|-------3--------0----------------------------
3|---0-3------0-3------------------------------
4|-2--------2-----------0-----2-0-0-----3-4----
5|--------------------2---3---------3-3--------
6|---------------------------------------------
Категория: Из Кинофильма | Добавил: gitarren-songs
Просмотров: 2263 | Загрузок: 0 | Комментарии: 2 | Рейтинг: 3.0/2
Всего комментариев: 1
1  
dry

Добавлять комментарии могут только зарегистрированные пользователи.
[ Регистрация | Вход ]
Copyright MyCorp © 2009